ISO-10303-21;
HEADER;
FILE_DESCRIPTION (( 'STEP AP203' ),
    '1' );
FILE_NAME ('BK7-BSC-20-400-700.STEP',
    '2020-12-22T03:18:01',
    ( '' ),
    ( '' ),
    'SwSTEP 2.0',
    'SolidWorks 2020',
    '' );
FILE_SCHEMA (( 'CONFIG_CONTROL_DESIGN' ));
ENDSEC;

DATA;
#1 = APPLICATION_CONTEXT ( 'configuration controlled 3d designs of mechanical parts and assemblies' ) ;
#2 = EDGE_CURVE ( 'NONE', #71, #177, #53, .T. ) ;
#3 = EDGE_LOOP ( 'NONE', ( #247, #195, #119 ) ) ;
#4 = ORIENTED_EDGE ( 'NONE', *, *, #199, .T. ) ;
#5 = ORIENTED_EDGE ( 'NONE', *, *, #272, .F. ) ;
#6 = DIRECTION ( 'NONE',  ( 0.000000000000000000, -0.000000000000000000, 1.000000000000000000 ) ) ;
#7 = ORIENTED_EDGE ( 'NONE', *, *, #13, .F. ) ;
#8 = FACE_OUTER_BOUND ( 'NONE', #3, .T. ) ;
#9 = ORIENTED_EDGE ( 'NONE', *, *, #47, .F. ) ;
#10 = PLANE ( 'NONE',  #179 ) ;
#11 = ADVANCED_FACE ( 'NONE', ( #300 ), #149, .F. ) ;
#12 = VECTOR ( 'NONE', #286, 1000.000000000000000 ) ;
#13 = EDGE_CURVE ( 'NONE', #229, #200, #38, .T. ) ;
#14 = CARTESIAN_POINT ( 'NONE',  ( 10.00000000000000178, -10.00000000000000000, 10.00000000000000000 ) ) ;
#15 = DIRECTION ( 'NONE',  ( -0.7071067811865475727, -0.7071067811865474617, 0.000000000000000000 ) ) ;
#16 = CARTESIAN_POINT ( 'NONE',  ( -9.999999999999998224, -10.00000000000000000, 10.00000000000000000 ) ) ;
#17 = DIRECTION ( 'NONE',  ( -0.000000000000000000, -0.000000000000000000, -1.000000000000000000 ) ) ;
#18 = COORDINATED_UNIVERSAL_TIME_OFFSET ( 8, 0, .AHEAD. ) ;
#19 = CARTESIAN_POINT ( 'NONE',  ( 0.000000000000000000, 0.000000000000000000, -10.00000000000000000 ) ) ;
#20 = APPLICATION_PROTOCOL_DEFINITION ( 'international standard', 'config_control_design', 1994, #1 ) ;
#21 = CC_DESIGN_APPROVAL ( #163, ( #25 ) ) ;
#22 = PERSON_AND_ORGANIZATION ( #37, #89 ) ;
#23 =( NAMED_UNIT ( * ) SI_UNIT ( $, .STERADIAN. ) SOLID_ANGLE_UNIT ( ) );
#24 = FACE_OUTER_BOUND ( 'NONE', #246, .T. ) ;
#25 = SECURITY_CLASSIFICATION ( '', '', #198 ) ;
#26 = AXIS2_PLACEMENT_3D ( 'NONE', #58, #6, #78 ) ;
#27 = ORIENTED_EDGE ( 'NONE', *, *, #243, .F. ) ;
#28 = CALENDAR_DATE ( 2020, 22, 12 ) ;
#29 = VERTEX_POINT ( 'NONE', #308 ) ;
#30 = COORDINATED_UNIVERSAL_TIME_OFFSET ( 8, 0, .AHEAD. ) ;
#31 = EDGE_LOOP ( 'NONE', ( #250, #298, #144, #4 ) ) ;
#32 = VECTOR ( 'NONE', #219, 1000.000000000000000 ) ;
#33 = VECTOR ( 'NONE', #57, 1000.000000000000000 ) ;
#34 = EDGE_LOOP ( 'NONE', ( #303, #7, #193, #261 ) ) ;
#35 = EDGE_CURVE ( 'NONE', #293, #258, #204, .T. ) ;
#36 = DIRECTION ( 'NONE',  ( 0.000000000000000000, 0.000000000000000000, 1.000000000000000000 ) ) ;
#37 = PERSON ( 'UNSPECIFIED', 'UNSPECIFIED', 'UNSPECIFIED', ('UNSPECIFIED'), ('UNSPECIFIED'), ('UNSPECIFIED') ) ;
#38 = LINE ( 'NONE', #228, #33 ) ;
#39 = DIRECTION ( 'NONE',  ( 1.000000000000000000, -2.220446049250313081E-16, 0.000000000000000000 ) ) ;
#40 = CARTESIAN_POINT ( 'NONE',  ( 10.00000000000000178, 9.999999999999998224, 10.00000000000000000 ) ) ;
#41 = DIRECTION ( 'NONE',  ( 0.000000000000000000, -0.000000000000000000, 1.000000000000000000 ) ) ;
#42 = AXIS2_PLACEMENT_3D ( 'NONE', #102, #251, #197 ) ;
#43 = APPROVAL_DATE_TIME ( #264, #255 ) ;
#44 = APPROVAL_ROLE ( '' ) ;
#45 = CARTESIAN_POINT ( 'NONE',  ( 10.00000000000000000, 10.00000000000000000, -10.00000000000000000 ) ) ;
#46 = ADVANCED_FACE ( 'NONE', ( #147 ), #10, .F. ) ;
#47 = EDGE_CURVE ( 'NONE', #181, #121, #129, .T. ) ;
#48 = CARTESIAN_POINT ( 'NONE',  ( 10.00000000000000178, -10.00000000000000000, -10.00000000000000000 ) ) ;
#49 = PERSON_AND_ORGANIZATION ( #37, #89 ) ;
#50 = VECTOR ( 'NONE', #220, 1000.000000000000000 ) ;
#51 = ORIENTED_EDGE ( 'NONE', *, *, #106, .T. ) ;
#52 = ADVANCED_FACE ( 'NONE', ( #151 ), #131, .T. ) ;
#53 = LINE ( 'NONE', #276, #284 ) ;
#54 = ORIENTED_EDGE ( 'NONE', *, *, #313, .T. ) ;
#55 = DIRECTION ( 'NONE',  ( -0.000000000000000000, 1.000000000000000000, -0.000000000000000000 ) ) ;
#56 = CARTESIAN_POINT ( 'NONE',  ( 10.00000000000000178, 9.999999999999998224, -10.00000000000000000 ) ) ;
#57 = DIRECTION ( 'NONE',  ( -0.000000000000000000, 0.000000000000000000, -1.000000000000000000 ) ) ;
#58 = CARTESIAN_POINT ( 'NONE',  ( 0.000000000000000000, 0.000000000000000000, -10.00000000000000000 ) ) ;
#59 = LINE ( 'NONE', #310, #88 ) ;
#60 = FACE_OUTER_BOUND ( 'NONE', #126, .T. ) ;
#61 = DIRECTION ( 'NONE',  ( 0.000000000000000000, 0.000000000000000000, 1.000000000000000000 ) ) ;
#62 = APPROVAL_ROLE ( '' ) ;
#63 = VECTOR ( 'NONE', #206, 1000.000000000000000 ) ;
#64 = LINE ( 'NONE', #107, #122 ) ;
#65 = PLANE ( 'NONE',  #208 ) ;
#66 = LINE ( 'NONE', #318, #271 ) ;
#67 = PERSON_AND_ORGANIZATION ( #37, #89 ) ;
#68 = CC_DESIGN_PERSON_AND_ORGANIZATION_ASSIGNMENT ( #22, #114, ( #218 ) ) ;
#69 = DATE_TIME_ROLE ( 'classification_date' ) ;
#70 = CARTESIAN_POINT ( 'NONE',  ( -9.999999999999998224, -10.00000000000000000, 10.00000000000000000 ) ) ;
#71 = VERTEX_POINT ( 'NONE', #14 ) ;
#72 = PERSON_AND_ORGANIZATION ( #37, #89 ) ;
#73 = ORIENTED_EDGE ( 'NONE', *, *, #150, .T. ) ;
#74 = ORIENTED_EDGE ( 'NONE', *, *, #313, .F. ) ;
#75 = LINE ( 'NONE', #279, #307 ) ;
#76 = LOCAL_TIME ( 11, 18, 1.000000000000000000, #140 ) ;
#77 = UNCERTAINTY_MEASURE_WITH_UNIT (LENGTH_MEASURE( 1.000000000000000082E-05 ), #115, 'distance_accuracy_value', 'NONE');
#78 = DIRECTION ( 'NONE',  ( 2.220446049250313081E-16, 1.000000000000000000, 0.000000000000000000 ) ) ;
#79 = CARTESIAN_POINT ( 'NONE',  ( -9.999999999999998224, 10.00000000000000355, 10.00000000000000000 ) ) ;
#80 = APPROVAL_PERSON_ORGANIZATION ( #67, #255, #62 ) ;
#81 = ORIENTED_EDGE ( 'NONE', *, *, #213, .T. ) ;
#82 = CARTESIAN_POINT ( 'NONE',  ( -9.999999999999998224, 10.00000000000000355, -10.00000000000000000 ) ) ;
#83 = DIRECTION ( 'NONE',  ( -0.000000000000000000, -0.000000000000000000, -1.000000000000000000 ) ) ;
#84 = EDGE_CURVE ( 'NONE', #121, #98, #105, .T. ) ;
#85 = EDGE_CURVE ( 'NONE', #29, #293, #75, .T. ) ;
#86 = DATE_TIME_ROLE ( 'creation_date' ) ;
#87 = EDGE_CURVE ( 'NONE', #172, #229, #180, .T. ) ;
#88 = VECTOR ( 'NONE', #155, 1000.000000000000000 ) ;
#89 = ORGANIZATION ( 'UNSPECIFIED', 'UNSPECIFIED', '' ) ;
#90 = LINE ( 'NONE', #211, #63 ) ;
#91 = PERSON_AND_ORGANIZATION ( #37, #89 ) ;
#92 = COORDINATED_UNIVERSAL_TIME_OFFSET ( 8, 0, .AHEAD. ) ;
#93 = DIRECTION ( 'NONE',  ( 1.000000000000000000, 0.000000000000000000, 0.000000000000000000 ) ) ;
#94 = ADVANCED_FACE ( 'NONE', ( #8 ), #103, .F. ) ;
#95 = EDGE_LOOP ( 'NONE', ( #101, #227, #291, #81 ) ) ;
#96 = EDGE_LOOP ( 'NONE', ( #223, #270, #175 ) ) ;
#97 = DIRECTION ( 'NONE',  ( 0.000000000000000000, 0.000000000000000000, 1.000000000000000000 ) ) ;
#98 = VERTEX_POINT ( 'NONE', #178 ) ;
#99 = FACE_OUTER_BOUND ( 'NONE', #173, .T. ) ;
#100 = ORIENTED_EDGE ( 'NONE', *, *, #199, .F. ) ;
#101 = ORIENTED_EDGE ( 'NONE', *, *, #35, .T. ) ;
#102 = CARTESIAN_POINT ( 'NONE',  ( 0.000000000000000000, 0.000000000000000000, 10.00000000000000000 ) ) ;
#103 = PLANE ( 'NONE',  #26 ) ;
#104 = AXIS2_PLACEMENT_3D ( 'NONE', #311, #134, #41 ) ;
#105 = LINE ( 'NONE', #302, #296 ) ;
#106 = EDGE_CURVE ( 'NONE', #258, #29, #153, .T. ) ;
#107 = CARTESIAN_POINT ( 'NONE',  ( -10.00000000000000178, -9.999999999999996447, -10.00000000000000000 ) ) ;
#108 = ADVANCED_FACE ( 'NONE', ( #99 ), #256, .F. ) ;
#109 = FACE_OUTER_BOUND ( 'NONE', #299, .T. ) ;
#110 = DIRECTION ( 'NONE',  ( 0.000000000000000000, 0.000000000000000000, 1.000000000000000000 ) ) ;
#111 = DATE_AND_TIME ( #241, #76 ) ;
#112 = AXIS2_PLACEMENT_3D ( 'NONE', #19, #266, #215 ) ;
#113 = CC_DESIGN_DATE_AND_TIME_ASSIGNMENT ( #214, #86, ( #312 ) ) ;
#114 = PERSON_AND_ORGANIZATION_ROLE ( 'design_owner' ) ;
#115 =( LENGTH_UNIT ( ) NAMED_UNIT ( * ) SI_UNIT ( .MILLI., .METRE. ) );
#116 = CLOSED_SHELL ( 'NONE', ( #11, #216, #124, #141, #154 ) ) ;
#117 = LINE ( 'NONE', #224, #32 ) ;
#118 = EDGE_CURVE ( 'NONE', #71, #258, #90, .T. ) ;
#119 = ORIENTED_EDGE ( 'NONE', *, *, #84, .T. ) ;
#120 = APPROVAL_DATE_TIME ( #123, #163 ) ;
#121 = VERTEX_POINT ( 'NONE', #82 ) ;
#122 = VECTOR ( 'NONE', #262, 1000.000000000000000 ) ;
#123 = DATE_AND_TIME ( #28, #295 ) ;
#124 = ADVANCED_FACE ( 'NONE', ( #109 ), #182, .F. ) ;
#125 = ORIENTED_EDGE ( 'NONE', *, *, #160, .F. ) ;
#126 = EDGE_LOOP ( 'NONE', ( #249, #73, #225 ) ) ;
#127 = DIRECTION ( 'NONE',  ( 1.000000000000000000, -2.220446049250313081E-16, 0.000000000000000000 ) ) ;
#128 = DIRECTION ( 'NONE',  ( -0.7071067811865475727, -0.7071067811865474617, 0.000000000000000000 ) ) ;
#129 = LINE ( 'NONE', #254, #319 ) ;
#130 =( GEOMETRIC_REPRESENTATION_CONTEXT ( 3 ) GLOBAL_UNCERTAINTY_ASSIGNED_CONTEXT ( ( #77 ) ) GLOBAL_UNIT_ASSIGNED_CONTEXT ( ( #115, #242, #23 ) ) REPRESENTATION_CONTEXT ( 'NONE', 'WORKASPACE' ) );
#131 = PLANE ( 'NONE',  #42 ) ;
#132 = ADVANCED_BREP_SHAPE_REPRESENTATION ( 'BK7-BSC-20-400-700', ( #289, #186, #165 ), #130 ) ;
#133 = PLANE ( 'NONE',  #232 ) ;
#134 = DIRECTION ( 'NONE',  ( 0.000000000000000000, 1.000000000000000000, 0.000000000000000000 ) ) ;
#135 = CC_DESIGN_PERSON_AND_ORGANIZATION_ASSIGNMENT ( #138, #239, ( #312 ) ) ;
#136 = CARTESIAN_POINT ( 'NONE',  ( 10.00000000000000178, 9.999999999999998224, 10.00000000000000000 ) ) ;
#137 = CC_DESIGN_PERSON_AND_ORGANIZATION_ASSIGNMENT ( #72, #292, ( #25 ) ) ;
#138 = PERSON_AND_ORGANIZATION ( #37, #89 ) ;
#139 = PRODUCT_RELATED_PRODUCT_CATEGORY ( 'detail', '', ( #218 ) ) ;
#140 = COORDINATED_UNIVERSAL_TIME_OFFSET ( 8, 0, .AHEAD. ) ;
#141 = ADVANCED_FACE ( 'NONE', ( #60 ), #133, .T. ) ;
#142 = DIRECTION ( 'NONE',  ( -0.7071067811865474617, 0.7071067811865475727, 0.000000000000000000 ) ) ;
#143 = APPROVAL_STATUS ( 'not_yet_approved' ) ;
#144 = ORIENTED_EDGE ( 'NONE', *, *, #205, .F. ) ;
#145 = ORIENTED_EDGE ( 'NONE', *, *, #84, .F. ) ;
#146 = ORIENTED_EDGE ( 'NONE', *, *, #118, .T. ) ;
#147 = FACE_OUTER_BOUND ( 'NONE', #34, .T. ) ;
#148 = APPROVAL_STATUS ( 'not_yet_approved' ) ;
#149 = PLANE ( 'NONE',  #237 ) ;
#150 = EDGE_CURVE ( 'NONE', #253, #71, #59, .T. ) ;
#151 = FACE_OUTER_BOUND ( 'NONE', #273, .T. ) ;
#152 = EDGE_CURVE ( 'NONE', #200, #121, #64, .T. ) ;
#153 = LINE ( 'NONE', #56, #183 ) ;
#154 = ADVANCED_FACE ( 'NONE', ( #265 ), #283, .F. ) ;
#155 = DIRECTION ( 'NONE',  ( 1.000000000000000000, 0.000000000000000000, 0.000000000000000000 ) ) ;
#156 = CARTESIAN_POINT ( 'NONE',  ( 10.00000000000000000, 10.00000000000000000, 10.00000000000000000 ) ) ;
#157 = DIRECTION ( 'NONE',  ( -0.000000000000000000, 0.000000000000000000, 1.000000000000000000 ) ) ;
#158 = CALENDAR_DATE ( 2020, 22, 12 ) ;
#159 = VECTOR ( 'NONE', #282, 1000.000000000000000 ) ;
#160 = EDGE_CURVE ( 'NONE', #98, #200, #207, .T. ) ;
#161 = APPROVAL_STATUS ( 'not_yet_approved' ) ;
#162 = CARTESIAN_POINT ( 'NONE',  ( 10.00000000000000000, 10.00000000000000000, 10.00000000000000000 ) ) ;
#163 = APPROVAL ( #148, 'UNSPECIFIED' ) ;
#164 = DIRECTION ( 'NONE',  ( -0.000000000000000000, 0.000000000000000000, -1.000000000000000000 ) ) ;
#165 = AXIS2_PLACEMENT_3D ( 'NONE', #190, #110, #93 ) ;
#166 = CLOSED_SHELL ( 'NONE', ( #317, #46, #108, #52, #94 ) ) ;
#167 = APPLICATION_PROTOCOL_DEFINITION ( 'international standard', 'config_control_design', 1994, #236 ) ;
#168 = CARTESIAN_POINT ( 'NONE',  ( -10.00000000000000178, -9.999999999999996447, 10.00000000000000000 ) ) ;
#169 = PERSON_AND_ORGANIZATION ( #37, #89 ) ;
#170 = PERSON_AND_ORGANIZATION_ROLE ( 'design_supplier' ) ;
#171 = CC_DESIGN_SECURITY_CLASSIFICATION ( #25, ( #245 ) ) ;
#172 = VERTEX_POINT ( 'NONE', #156 ) ;
#173 = EDGE_LOOP ( 'NONE', ( #145, #9, #196, #54 ) ) ;
#174 = DATE_AND_TIME ( #294, #217 ) ;
#175 = ORIENTED_EDGE ( 'NONE', *, *, #35, .F. ) ;
#176 = DIRECTION ( 'NONE',  ( -0.000000000000000000, 0.000000000000000000, -1.000000000000000000 ) ) ;
#177 = VERTEX_POINT ( 'NONE', #314 ) ;
#178 = CARTESIAN_POINT ( 'NONE',  ( 10.00000000000000000, 10.00000000000000000, -10.00000000000000000 ) ) ;
#179 = AXIS2_PLACEMENT_3D ( 'NONE', #281, #39, #36 ) ;
#180 = LINE ( 'NONE', #309, #159 ) ;
#181 = VERTEX_POINT ( 'NONE', #79 ) ;
#182 = PLANE ( 'NONE',  #287 ) ;
#183 = VECTOR ( 'NONE', #277, 1000.000000000000000 ) ;
#184 = FACE_OUTER_BOUND ( 'NONE', #95, .T. ) ;
#185 = CARTESIAN_POINT ( 'NONE',  ( 0.000000000000000000, 0.000000000000000000, 10.00000000000000000 ) ) ;
#186 = MANIFOLD_SOLID_BREP ( '¾µÏ', #166 ) ;
#187 = CALENDAR_DATE ( 2020, 22, 12 ) ;
#188 = LINE ( 'NONE', #260, #244 ) ;
#189 = PERSON_AND_ORGANIZATION_ROLE ( 'creator' ) ;
#190 = CARTESIAN_POINT ( 'NONE',  ( 0.000000000000000000, 0.000000000000000000, 0.000000000000000000 ) ) ;
#191 = LINE ( 'NONE', #168, #50 ) ;
#192 = CARTESIAN_POINT ( 'NONE',  ( -9.999999999999998224, -10.00000000000000000, -10.00000000000000000 ) ) ;
#193 = ORIENTED_EDGE ( 'NONE', *, *, #243, .T. ) ;
#194 = VECTOR ( 'NONE', #17, 1000.000000000000000 ) ;
#195 = ORIENTED_EDGE ( 'NONE', *, *, #152, .T. ) ;
#196 = ORIENTED_EDGE ( 'NONE', *, *, #272, .T. ) ;
#197 = DIRECTION ( 'NONE',  ( 2.220446049250313081E-16, 1.000000000000000000, 0.000000000000000000 ) ) ;
#198 = SECURITY_CLASSIFICATION_LEVEL ( 'unclassified' ) ;
#199 = EDGE_CURVE ( 'NONE', #177, #29, #238, .T. ) ;
#200 = VERTEX_POINT ( 'NONE', #234 ) ;
#201 = DIRECTION ( 'NONE',  ( 1.000000000000000000, 0.000000000000000000, 0.000000000000000000 ) ) ;
#202 = CARTESIAN_POINT ( 'NONE',  ( 10.00000000000000000, 10.00000000000000000, 10.00000000000000000 ) ) ;
#203 = LOCAL_TIME ( 11, 18, 1.000000000000000000, #18 ) ;
#204 = LINE ( 'NONE', #274, #278 ) ;
#205 = EDGE_CURVE ( 'NONE', #177, #253, #188, .T. ) ;
#206 = DIRECTION ( 'NONE',  ( -0.000000000000000000, -0.000000000000000000, -1.000000000000000000 ) ) ;
#207 = LINE ( 'NONE', #45, #12 ) ;
#208 = AXIS2_PLACEMENT_3D ( 'NONE', #162, #142, #268 ) ;
#209 = APPROVAL_PERSON_ORGANIZATION ( #288, #267, #44 ) ;
#210 = AXIS2_PLACEMENT_3D ( 'NONE', #202, #259, #97 ) ;
#211 = CARTESIAN_POINT ( 'NONE',  ( 10.00000000000000178, -10.00000000000000000, 10.00000000000000000 ) ) ;
#212 = CARTESIAN_POINT ( 'NONE',  ( -10.00000000000000178, -9.999999999999996447, 10.00000000000000000 ) ) ;
#213 = EDGE_CURVE ( 'NONE', #253, #293, #235, .T. ) ;
#214 = DATE_AND_TIME ( #187, #203 ) ;
#215 = DIRECTION ( 'NONE',  ( 1.000000000000000000, 0.000000000000000000, 0.000000000000000000 ) ) ;
#216 = ADVANCED_FACE ( 'NONE', ( #184 ), #263, .F. ) ;
#217 = LOCAL_TIME ( 11, 18, 1.000000000000000000, #275 ) ;
#218 = PRODUCT ( 'BK7-BSC-20-400-700', 'BK7-BSC-20-400-700', '', ( #221 ) ) ;
#219 = DIRECTION ( 'NONE',  ( 1.000000000000000000, -2.220446049250313081E-16, 0.000000000000000000 ) ) ;
#220 = DIRECTION ( 'NONE',  ( 2.220446049250313081E-16, 1.000000000000000000, 0.000000000000000000 ) ) ;
#221 = MECHANICAL_CONTEXT ( 'NONE', #1, 'mechanical' ) ;
#222 = APPROVAL_PERSON_ORGANIZATION ( #49, #163, #248 ) ;
#223 = ORIENTED_EDGE ( 'NONE', *, *, #85, .F. ) ;
#224 = CARTESIAN_POINT ( 'NONE',  ( 10.00000000000000000, 10.00000000000000000, 10.00000000000000000 ) ) ;
#225 = ORIENTED_EDGE ( 'NONE', *, *, #2, .T. ) ;
#226 = SHAPE_DEFINITION_REPRESENTATION ( #320, #132 ) ;
#227 = ORIENTED_EDGE ( 'NONE', *, *, #118, .F. ) ;
#228 = CARTESIAN_POINT ( 'NONE',  ( -10.00000000000000178, -9.999999999999996447, 10.00000000000000000 ) ) ;
#229 = VERTEX_POINT ( 'NONE', #212 ) ;
#230 = ORIENTED_EDGE ( 'NONE', *, *, #13, .T. ) ;
#231 = CARTESIAN_POINT ( 'NONE',  ( 10.00000000000000178, 9.999999999999998224, 10.00000000000000000 ) ) ;
#232 = AXIS2_PLACEMENT_3D ( 'NONE', #185, #157, #240 ) ;
#233 = ORIENTED_EDGE ( 'NONE', *, *, #87, .T. ) ;
#234 = CARTESIAN_POINT ( 'NONE',  ( -10.00000000000000178, -9.999999999999996447, -10.00000000000000000 ) ) ;
#235 = LINE ( 'NONE', #16, #290 ) ;
#236 = APPLICATION_CONTEXT ( 'configuration controlled 3d designs of mechanical parts and assemblies' ) ;
#237 = AXIS2_PLACEMENT_3D ( 'NONE', #231, #257, #304 ) ;
#238 = LINE ( 'NONE', #40, #194 ) ;
#239 = PERSON_AND_ORGANIZATION_ROLE ( 'creator' ) ;
#240 = DIRECTION ( 'NONE',  ( 1.000000000000000000, 0.000000000000000000, 0.000000000000000000 ) ) ;
#241 = CALENDAR_DATE ( 2020, 22, 12 ) ;
#242 =( NAMED_UNIT ( * ) PLANE_ANGLE_UNIT ( ) SI_UNIT ( $, .RADIAN. ) );
#243 = EDGE_CURVE ( 'NONE', #229, #181, #191, .T. ) ;
#244 = VECTOR ( 'NONE', #15, 1000.000000000000000 ) ;
#245 = PRODUCT_DEFINITION_FORMATION_WITH_SPECIFIED_SOURCE ( 'ANY', '', #218, .NOT_KNOWN. ) ;
#246 = EDGE_LOOP ( 'NONE', ( #125, #74, #233, #230 ) ) ;
#247 = ORIENTED_EDGE ( 'NONE', *, *, #160, .T. ) ;
#248 = APPROVAL_ROLE ( '' ) ;
#249 = ORIENTED_EDGE ( 'NONE', *, *, #205, .T. ) ;
#250 = ORIENTED_EDGE ( 'NONE', *, *, #85, .T. ) ;
#251 = DIRECTION ( 'NONE',  ( 0.000000000000000000, -0.000000000000000000, 1.000000000000000000 ) ) ;
#252 = CC_DESIGN_APPROVAL ( #255, ( #312 ) ) ;
#253 = VERTEX_POINT ( 'NONE', #70 ) ;
#254 = CARTESIAN_POINT ( 'NONE',  ( -9.999999999999998224, 10.00000000000000355, 10.00000000000000000 ) ) ;
#255 = APPROVAL ( #143, 'UNSPECIFIED' ) ;
#256 = PLANE ( 'NONE',  #210 ) ;
#257 = DIRECTION ( 'NONE',  ( 0.7071067811865474617, -0.7071067811865475727, 0.000000000000000000 ) ) ;
#258 = VERTEX_POINT ( 'NONE', #48 ) ;
#259 = DIRECTION ( 'NONE',  ( -2.220446049250313081E-16, -1.000000000000000000, 0.000000000000000000 ) ) ;
#260 = CARTESIAN_POINT ( 'NONE',  ( 10.00000000000000178, 9.999999999999998224, 10.00000000000000000 ) ) ;
#261 = ORIENTED_EDGE ( 'NONE', *, *, #47, .T. ) ;
#262 = DIRECTION ( 'NONE',  ( 2.220446049250313081E-16, 1.000000000000000000, 0.000000000000000000 ) ) ;
#263 = PLANE ( 'NONE',  #104 ) ;
#264 = DATE_AND_TIME ( #158, #315 ) ;
#265 = FACE_OUTER_BOUND ( 'NONE', #96, .T. ) ;
#266 = DIRECTION ( 'NONE',  ( -0.000000000000000000, 0.000000000000000000, 1.000000000000000000 ) ) ;
#267 = APPROVAL ( #161, 'UNSPECIFIED' ) ;
#268 = DIRECTION ( 'NONE',  ( 0.7071067811865475727, 0.7071067811865474617, 0.000000000000000000 ) ) ;
#269 = DESIGN_CONTEXT ( 'detailed design', #236, 'design' ) ;
#270 = ORIENTED_EDGE ( 'NONE', *, *, #106, .F. ) ;
#271 = VECTOR ( 'NONE', #164, 1000.000000000000000 ) ;
#272 = EDGE_CURVE ( 'NONE', #181, #172, #117, .T. ) ;
#273 = EDGE_LOOP ( 'NONE', ( #301, #5, #27 ) ) ;
#274 = CARTESIAN_POINT ( 'NONE',  ( -9.999999999999998224, -10.00000000000000000, -10.00000000000000000 ) ) ;
#275 = COORDINATED_UNIVERSAL_TIME_OFFSET ( 8, 0, .AHEAD. ) ;
#276 = CARTESIAN_POINT ( 'NONE',  ( 10.00000000000000178, 9.999999999999998224, 10.00000000000000000 ) ) ;
#277 = DIRECTION ( 'NONE',  ( -0.000000000000000000, 1.000000000000000000, -0.000000000000000000 ) ) ;
#278 = VECTOR ( 'NONE', #201, 1000.000000000000000 ) ;
#279 = CARTESIAN_POINT ( 'NONE',  ( 10.00000000000000178, 9.999999999999998224, -10.00000000000000000 ) ) ;
#280 = CC_DESIGN_PERSON_AND_ORGANIZATION_ASSIGNMENT ( #169, #170, ( #245 ) ) ;
#281 = CARTESIAN_POINT ( 'NONE',  ( -10.00000000000000178, -9.999999999999996447, 10.00000000000000000 ) ) ;
#282 = DIRECTION ( 'NONE',  ( -0.7071067811865475727, -0.7071067811865474617, 0.000000000000000000 ) ) ;
#283 = PLANE ( 'NONE',  #112 ) ;
#284 = VECTOR ( 'NONE', #55, 1000.000000000000000 ) ;
#285 = DIRECTION ( 'NONE',  ( -1.000000000000000000, 0.000000000000000000, 0.000000000000000000 ) ) ;
#286 = DIRECTION ( 'NONE',  ( -0.7071067811865475727, -0.7071067811865474617, 0.000000000000000000 ) ) ;
#287 = AXIS2_PLACEMENT_3D ( 'NONE', #136, #285, #61 ) ;
#288 = PERSON_AND_ORGANIZATION ( #37, #89 ) ;
#289 = MANIFOLD_SOLID_BREP ( 'Í¹Ì¨-À', #116 ) ;
#290 = VECTOR ( 'NONE', #83, 1000.000000000000000 ) ;
#291 = ORIENTED_EDGE ( 'NONE', *, *, #150, .F. ) ;
#292 = PERSON_AND_ORGANIZATION_ROLE ( 'classification_officer' ) ;
#293 = VERTEX_POINT ( 'NONE', #192 ) ;
#294 = CALENDAR_DATE ( 2020, 22, 12 ) ;
#295 = LOCAL_TIME ( 11, 18, 1.000000000000000000, #30 ) ;
#296 = VECTOR ( 'NONE', #127, 1000.000000000000000 ) ;
#297 = ORIENTED_EDGE ( 'NONE', *, *, #2, .F. ) ;
#298 = ORIENTED_EDGE ( 'NONE', *, *, #213, .F. ) ;
#299 = EDGE_LOOP ( 'NONE', ( #51, #100, #297, #146 ) ) ;
#300 = FACE_OUTER_BOUND ( 'NONE', #31, .T. ) ;
#301 = ORIENTED_EDGE ( 'NONE', *, *, #87, .F. ) ;
#302 = CARTESIAN_POINT ( 'NONE',  ( 10.00000000000000000, 10.00000000000000000, -10.00000000000000000 ) ) ;
#303 = ORIENTED_EDGE ( 'NONE', *, *, #152, .F. ) ;
#304 = DIRECTION ( 'NONE',  ( 0.7071067811865475727, 0.7071067811865474617, 0.000000000000000000 ) ) ;
#305 = CC_DESIGN_DATE_AND_TIME_ASSIGNMENT ( #174, #69, ( #25 ) ) ;
#306 = CC_DESIGN_APPROVAL ( #267, ( #245 ) ) ;
#307 = VECTOR ( 'NONE', #128, 1000.000000000000000 ) ;
#308 = CARTESIAN_POINT ( 'NONE',  ( 10.00000000000000178, 9.999999999999998224, -10.00000000000000000 ) ) ;
#309 = CARTESIAN_POINT ( 'NONE',  ( 10.00000000000000000, 10.00000000000000000, 10.00000000000000000 ) ) ;
#310 = CARTESIAN_POINT ( 'NONE',  ( -9.999999999999998224, -10.00000000000000000, 10.00000000000000000 ) ) ;
#311 = CARTESIAN_POINT ( 'NONE',  ( -9.999999999999998224, -10.00000000000000000, 10.00000000000000000 ) ) ;
#312 = PRODUCT_DEFINITION ( 'UNKNOWN', '', #245, #269 ) ;
#313 = EDGE_CURVE ( 'NONE', #172, #98, #66, .T. ) ;
#314 = CARTESIAN_POINT ( 'NONE',  ( 10.00000000000000178, 9.999999999999998224, 10.00000000000000000 ) ) ;
#315 = LOCAL_TIME ( 11, 18, 1.000000000000000000, #92 ) ;
#316 = APPROVAL_DATE_TIME ( #111, #267 ) ;
#317 = ADVANCED_FACE ( 'NONE', ( #24 ), #65, .F. ) ;
#318 = CARTESIAN_POINT ( 'NONE',  ( 10.00000000000000000, 10.00000000000000000, 10.00000000000000000 ) ) ;
#319 = VECTOR ( 'NONE', #176, 1000.000000000000000 ) ;
#320 = PRODUCT_DEFINITION_SHAPE ( 'NONE', 'NONE',  #312 ) ;
#321 = CC_DESIGN_PERSON_AND_ORGANIZATION_ASSIGNMENT ( #91, #189, ( #245 ) ) ;
ENDSEC;
END-ISO-10303-21;
